Земфира — СПИД

Текст песни Земфира — СПИД с аккордами:

Вступление

Проигрыш: Bmaj7 Gm C (2 (раза))
G
Я сняла наушники, слушала ветер.
      Gm             C
В открытые двери пустой маршрутки.
 G
Ветер рассказал мне о страшном секрете,
     Gm              C           C
Мол нам остаются последние сутки.

              Gm
   А у тебя СПИД, и значит мы умрём.
   Gm
   У тебя СПИД, и значит мы умрём.
      Gm
   Но у тебя СПИД, и значит мы умрём.
   C      G      G
   У тебя... и значит мы...

Будем глотать в больнице лекарства,
Не думать про завтра, не включать телевизор,
На карте искать тридесятое царство,
А вдруг повезёт, и достанутся визы.

   Но у тебя СПИД, и значит мы умрём.
   У тебя СПИД, и значит мы умрём.
   А у тебя СПИД, и значит мы умрём.
   А у тебя... и значит мы...

Не рассчитались с долгами, свинтили.
До скорого, мама, ключи у соседки.
Я дула на веки пока не остыли,
И плакали ивы, и ставили метки.
  Gm C
А-а!
    Gm                C              C
Не видел ленивый в газете заметки, что

Solo: Gm C (x3)
      Gm C

G|-------------7--5-8-12-10--------------------|
F|--5-------5---------------10-8-7-------------|
C|------5-7------------------------------------|

G|--10-8----5-3--------------5-5-5-------------|
F|--10-8----5-3--5-3---------5-5-5-------------|
C|---------------------5-7-5---------7-5-------|
C|-------------------7-------------7-----7-5/7-|

F|------------5---8-6-5------------------------|
C|-----4-5--7------------7--5-7\-5-7-----------|
C|--7---------------------------------7--------|

G|-5-------------------------------------------|
F|---8-5------------------------------5-8-10-8-|
C|-------7---7^-5-----7^-5--------5-7----------|
C|---------7-7----7-7------7--5-7--------------|

  А у тебя СПИД, и мы далеко.
  Но у тебя СПИД, и мы далеко,
  Но у тебя СПИД, и мы далеко,
  Но у тебя... и значит мы...

F|----/12-10-8-10----------|
C|----------------9-7-6~~--|
C|-12----------------------|

Табулатуры аккордов в песне

Оцените песню
Аккорды