Татьяна Буланова — Коростель

Текст песни Татьяна Буланова — Коростель с аккордами:

Вступление

- проигрыш -
E--------------------------------------------------
H-----------------3=2-----0----------------------
G------0-------0-------------2-----2=1----------
D----4-------4----------------------------2-------
A--2---------------------0-------------------2----
E----------3----------------------0---------------
Hm G A9 E
--------------------------------------------------
-------------------3=2-----0-----------------0--
-------0--------0-------------2------2=1--------
-----4--------4-----------------------------2-----
---2---------------------0------------------------
-----------3-----------------------0--------------
Hm G A9 E

-куп-/ B-4-3-2 /. -прип-/ V ^ V(x) ^ /

Hm G A4 A Hm G A4 A
Полночь, как черная волчица, что-то сейчас должно случится,
Hm G A4 A Hm G A4 A
С нами, при свете этих ярких звезд и светлячков,
-так-же-
Может, все это с нами было, помнишь, как я тебя любила,
Только, с тех давних пор минуло так много веков.

-tab.s 6-i. Hm(224432) G(320033 A4(002230) A(002220)
G+7(320002) D(x00232) A6(002222)

Припев:/ V ^ V(x) ^ /

Hm G+7 D A Hm G+7 A4 A
Снова ве---тер колышит ковыль, там где небо, да, звездная пыль,
Hm G+7 D A Hm G+7 A6 
Полынью, мой сказочный мир до небес, пропах.
Hm G+7 D A Hm G+7 A4
Снова где-то кричит коростель, ночь расстелит нам степью 
A
постель,
Hm G+7 D A6 Hm G+7 A4 A
Там где небо, да звездная пыль на твоих губах и на моих.

Полночь, как черная волчица, знаю, все это повторится, 
Может, спустя сто тысяч лет с тобой, встречусь я вновь.
Все лишь, круженье звездной пыли, но мы друг друга так любили,
Верю, на свете все проходит, но, но не любовь.

Припев:
Снова ветер колышит ковыль, там где небо, да, звездная пыль,
Полынью, мой сказочный мир до небес, пропах.
Снова где-то кричит коростель, ночь расстелит нам степью постель,
Там где небо, да звездная пыль на твоих губах и на моих.
Там где небо, да звездная пыль на твоих губах.

Снова где-то кричит коростель... Ночь расстелит нам степью постель...
Там где небо, да звездная пыль на твоих губах

Табулатуры аккордов в песне

Оцените песню
Аккорды