Тамара Гвердцители — Признание

Текст песни Тамара Гвердцители — Признание с аккордами:

Каподастр на 4-м ладу
Аккорды транспонированы так, как будто играются на открытых струнах.
Чтобы увидеть оригинальную тональность, повысьте её на 4 пункта вверх. 

Вступление: 
Bm      Fadd11    G           B        G            B        G/5-       Bsus4      B
E------------------------------------------------------------------------------------------------
H--------0-0h1----0---------------------------------------------------------------------------
G------2-------------2----0h2-0-0-0-------0h2-0-------------------------------------------
D-0h2----------------3----------3-3-------3-------3-3h5---3-2-2h3---------2-----0------
A------------------------------------------------------------------------------0h2--------3-2--
E-------------------------------------------------------------------------------------------------

Bm                      C7  Fm                  B7
    Жду твоих признаний после расставаний;
  Fm Fm/B Fm/C         B         Bm
Кто я есть        для тебя, скажи?
Fm      F7       Fm            Fm/C   B       Bm B
 Но не надо лжи, дай мне свет вместо тени.

                       G 7   G             C7      Bm
Больше нет сомнений, что на дне души
                     B7     Fm              Gm           B
Были, словно миражи;  Заглушая голос любви,
           G/5-              Bsus4 B
Теперь его ты снова слышишь.

Жду твоих признаний после расстояний -
 Fm  Fm/B Fm/C             B       Bm Fadd11
Сотнями,          словно в сотни лет;
Но потерян след всех твоих заблуждений.

Нет теперь сомнений, и на дне души
Растворились миражи; больше тайны нет, так скажи,
Что ты одной лишь мною дышишь.

Проигрыш:
Bm          C7        Fm               B7 Fm Fm/B Fm/C      B     Bm
E-----5-7-8-7-8-5----------3-5-6-5-3-1-0--1-------------------------------8--7------
H---5--------------8-7-----3-------------------------------------5h6-5-4h5--------5---
G-----------------------------------------------2--------------------------------------------
D--------------------------------------------------------------------------------------------
A--------------------------------------------------------------------------------------------
E--------------------------------------------------------------------------------------------
Fm        F7  Fm   Fm/C B    Bm      B
E-----------6-5--------------------4-7-8-8---12-----------------------------------------
H---3-1-3------3-----3-5-6----5---------------------------------------------------------
G--------------------------------------------------------------------------------------------
D--------------------------------------------------------------------------------------------
A--------------------------------------------------------------------------------------------
E--------------------------------------------------------------------------------------------

Нет теперь сомнений, и на дне души
Растворились миражи; 
Больше тайны нет, так скажи,
              G/5-               Bsus4 B Bsus2
E---------------------------------------------------5-7-8----7h8-7-5---------------------
H-------------------------------------------------5------8h9----------5-----3-5-3--------
G-------------------------------------------------------------------------5-4--------5-4---
D-----------------------------------------------------------------------------------------6-
A--------------------------------------------------------------------------------------------
E--------------------------------------------------------------------------------------------
Что ты одной лишь мною дышишь.

Am [x02210]
Gadd11 [320013]
F [133211]
C [x32010]
F/5- [xx3201]
Esus4 [022200]
E [022100]
H7 [x21202]
Gm [355333]
A7 [x02020]
Dm [xx0231]
Dm/C [x30231]
Dm/H [x20231]
D# [x65343]
D7 [xx0212]
A [x02220]
F 7 [xx3210]
Fm [133111]
Asus2 [x02200]

Табулатуры аккордов в песне

Оцените песню
Аккорды